Аккорды песни Король и Шут — Пьянка

               Am         Dm
     Деревья тихо шепчутся,
        G        
     Макушками качая
        Am         Dm
     И совсем внимания
        G        
     На нас не обращая.
        Am         Dm
     Прохладный теплый вечер
        G        
     В молчании застыл
        F              Dm
     Петух притих в сарае -
         F            G
     Горланить прекратил.
 
 Припев:
          F
     А в голове мутит,
       Em
     И ангелы летают,
       Am            G             Am
4|--------7------7------5------5------7------7------7------7--|
5|--------7------7------5------5------7------7------7------7--|
6|-----55-5---55-5---33-3---33-3---55-5---55-5---55-5---55-5--|
  p.m. --     --     --     --     --     --     --     --
        И все  проблемы  тают   исчезают.
 
          F
     А в голове мутит,
       Em
     И ангелы летают,
       Am            G             Am
4|--------7------7------5------5------7------7------7------7--|
5|--------7------7------5------5------7------7------7------7--|
6|-----55-5---55-5---33-3---33-3---55-5---55-5---55-5---55-5--|
  p.m. --     --     --     --     --     --     --     --
        И все  проблемы  тают   исчезают.
 
3|------------------5-4------|
4|-------5--7-----------7-5--|
5|-5--7--------7-5-----------|
6|---------------------------|

        Am         Dm
     И в поле на пшенице
        G        
     Мы славно отдыхаем:
        Am         Dm
     Бутылку за бутылкой
        G        
     Мы лихо пропускаем.
        Am         Dm
     А в животе бурлит
        G        
     Родная водка русская
        F            Dm
     Она там разгулялась
        F            G
     Со свежею закускою.
 
 Припев:
          F
     А в голове мутит,
       Em
     И ангелы летают,
       Am            G             Am
4|--------7------7------5------5------7------7------7------7--|
5|--------7------7------5------5------7------7------7------7--|
6|-----55-5---55-5---33-3---33-3---55-5---55-5---55-5---55-5--|
  p.m. --     --     --     --     --     --     --     --
        И все  проблемы  тают   исчезают.
 
            F
     А в голове мутит,
       Em
     И ангелы летают,
       Am            G             Am
4|--------7------7------5------5------7------7------7------7--|
5|--------7------7------5------5------7------7------7------7--|
6|-----55-5---55-5---33-3---33-3---55-5---55-5---55-5---55-5--|
  p.m. --     --     --     --     --     --     --     --
        И все  проблемы  тают   исчезают.
 
3|------------------5-4-----|
4|-------5--7-----------7-5-|
5|-5--7--------7-5----------|
6|--------------------------|
 
        Am         Dm
     Сегодня мы пойдем,
        G        
     Буянить по дороге,
        Am         Dm
     Тем более, что нас
        G        
     Не держат наши ноги.
        Am        Dm
     И песню затянув,
        G        
     Да голосами пьяными,
        F              Dm
     Здесь в поле мы останемся
        F          G
     Ждать вас к утру...
 
 Припев:
          F
     А в голове мутит,
       Em
     И ангелы летают,
       Am            G             Am
4|--------7------7------5------5------7------7------7------7--|
5|--------7------7------5------5------7------7------7------7--|
6|-----55-5---55-5---33-3---33-3---55-5---55-5---55-5---55-5--|
  p.m. --     --     --     --     --     --     --     --
        И все  проблемы  тают   исчезают.
 
3|------------------5-4------|
4|-------5--7-----------7-5--|
5|-5--7--------7-5-----------|
6|---------------------------|

          F
     А в голове мутит,
       Em
     И ангелы летают,
       Am            G             Am
4|--------7------7------5------5------7------7------7------7--|
5|--------7------7------5------5------7------7------7------7--|
6|-----55-5---55-5---33-3---33-3---55-5---55-5---55-5---55-5--|
  p.m. --     --     --     --     --     --     --     --
        И все  проблемы  тают   исчезают.
 
3|------------------5-4------|
4|-------5--7-----------7-5--|
5|-5--7--------7-5-----------|
6|---------------------------|

        F
     А голова болит,
       Em
     И ангелов нема...
       Am   G  Am
     Хо-хо-хо-хо.
    

Аккорды песен Король и Шут

Показать все

Аккорды и текст песни Король и Шут - Пьянка, под гитару.

Представляем Вашему вниманию полный разбор аккордов и текста песни Пьянка, группы Король и Шут. На нашем сайте вы можете найти сразу несколько подборов аккордов этой композиции, с разными вариантами тональности и манер игры на гитаре.