Аккорды песни Чиж — Полонез

       Вступление:
E
E|-0--------0--2--------0-|    
B|-------0-----------0----|    
G|----1-----------2-------|   
D|-2-----------1----------|   
A|------------------------|   
E|------------------------|   

E|-4-----0--4--0-----2--4-|    
B|----0-----------0-------|   
G|------------------------|   
D|------------------------|   
A|------------------------|   
E|-0----------------------|   

E|-5-----0--5--5-----1--4-|    
B|----2-----------2-------|    
G|------------------------|   
D|------------------------|   
A|-0-----------4----------|   
E|------------------------|   

E|-2--------2-----------0-|    
B|----0--------0-----0----|   
G|-------2--------2-------|   
D|-0----------------------|   
A|------------------------|   
E|------------------------|   

A
E|-0--------0--------4--2-|    
B|-------2--------1-------|    
G|----2--------1----------|   
D|------------------------|   
A|-0----------------------|   
E|------------------------|   

E|-0--------0-----------4-|    
B|-------2-----2-----7----|   
G|----3-----------3-------|   
D|------------------------|   
A|-4----------------------|   
E|------------------------|   

E|-7--5/5-----------------|    
B|----------7/7--5/5------|    
G|-------6-----6-----6----|    
D|-4----------------------|   
A|------------------------|   
E|------------------------|   

B7
E|-------------1-----2----|    
H|-4-----5--------0-----0-|   
G|----4-----4-------------|   
D|-------------0----------|   
A|-2-----4-----------1----|   
E|------------------------|   

  E     B7    E       A      C#   F#m
Давай разроем снег и найдем хоть одну мечту.
 A         B7           E  B7
Ты сказала, ты знаешь, она живет там.
  E   B7    E     A      C#       F#m
Принесем домой и оставим с собой до весны,  
A         B7        E        
А потом с балкона отпустим ее,  
    C#+5 C# 
Пусть летит!

Припев:
     D6            B7
   Колокольчик в твоих волосах
            E
   Звучит соль-диезом.
      D6            B7
   Колокольчик в твоих волосах...

  E     B7    E       A      C#   F#m
Давай разожжем костер, и согреем хоть одну звезду,
 A         B7           E  B7
Ты сказала мне, что нужно делать именно так.
  E     B7    E       A      C#   F#m
Мы будем сидеть у огня и рассказывать друг другу сны,
A         B7        E        
А потом нам споет свою песню первая птица 
   C#+5 C# 
И улетит...

Припев:
     D6            B7
   Колокольчик в твоих волосах
            E
   Звучит соль-диезом.
      D6            B7
   Колокольчик в твоих волосах...

  E     B7    E       A      C#   F#m
Давай растопим лед, и спасем хоть одну любовь,
 A         B7           E  B7
Ты сказала мне, что видишь в этом новый восход,
  E     B7    E       A      C#   F#m
Мы напишем стихи о том как нам хорошо вдвоем,
A         B7        E        
А потом ты научишь меня танцевать полонез, 
    C#+5 C# 
И мы взлетим...

Припев:
     D6            B7
   Колокольчик в твоих волосах
            E
   Звучит соль-диезом.
      D6            B7
   Колокольчик в твоих волосах...
    

Аккорды песен Чиж

Показать все

Аккорды и текст песни Чиж - Полонез, под гитару.

Представляем Вашему вниманию полный разбор аккордов и текста песни Полонез, группы Чиж. На нашем сайте вы можете найти сразу несколько подборов аккордов этой композиции, с разными вариантами тональности и манер игры на гитаре.