Аккорды песни Чиж — Полонез

       Вступление: 
   C       G/B    C               F       A7      Bb7
e|----------------------0-------0-1-----1-0---1-0----------------- 
b|-1-----1-3----3-1-------1---3-------1-----------3-----3-----3---
g|-----0-------0------0-----0-------2-------0-------0-----0-----0- 
d|---2-------0------2---------------------------------3-----3----- 
a|-3-------2------3-----------------------0-------1--------------- 
E|--------------------------------1------------------------------- 
 
   C       E       Am7             Dm              G           G/B
e|-------------0-----------------0-3-1----------------------------- 
b|-1-----1-------3-1-----1---1-3---------3---1---0-0---1---2---3---
g|-----0-----1-------0-----0-----------2---2---2-----0---0---0---0- 
d|---2-----2-----------2-----------0------------------------------- 
a|-3---------------0-----------------------------------0---1---2--- 
E|-------------------------------------------------3--------------- 
 
Далее играют две гитары: 
 
Гитара 1: 
e|----------------------0-------0-1-----1-0---1-0----------------- 
b|-1-----1-3----3-1-------1---3-------1-----------3-----3-----3---
g|-----0-------0------0-----0-------2-------0-------0-----0-----0- 
d|---2-------0------2---------------------------------3-----3----- 
a|-3-------2------3-----------------------0-------1--------------- 
E|--------------------------------1------------------------------- 
 
Гитара 2: 
e|-0-1-3-------3-------------------0-0h1-1-0-1-0---
b|--------------------1--------1-3---------------3-
g|-------------------------------------------------
 
Гитара 1: 
e|-------------0-----------------0-3-1----------------------------- 
b|-1-----1-------3-1-----1---1-3---------3---1---0-0---1---2---3---
g|-----0-----1-------0-----0-----------2---2---2-----0---0---0---0- 
d|---2-----2-----------2-----------0------------------------------- 
a|-3---------------0-----------------------------------0---1---2--- 
E|-------------------------------------------------3--------------- 
 
Гитара 2: 
e|----------------------0-3-1-------
b|-1-1-1-0-/5-3-1---1-3-------3-1-0-
g|----------------------------------
 
Основная часть: 
e|----------------------0-------0-1-----1-0---1-0-------0-1-0h1p0-----
b|-1-----1-3----3-1-------1---3-------1-----------3---3-----------3---
g|-----0-------0------0-----0-------2-------0-------2---------------2-
d|---2-------0------2-----------------------------0-------------------
a|-3-------2------3-----------------------0---------------------------
E|--------------------------------1-----------------------------------
Давай  разроем  снег        И найдем хоть одну мечту 
 
e|-------1---------------3---------------0---------------0h1p0- 
b|-1-------1-------3-------3-------1-------1-----------0-------
g|-----2-----2---2-----4-----4---4-----0-----0---0---0--------- 
d|---3---------3-----5---------5-----2---------2--------------- 
a|---------------------------------3--------------------------- 
E|-1---------------3-------------------------------3----------- 
  Ты сказала  ты знаешь она живет там 
 
e|-----------------------0-------0-1-----1-0---1-0-------0-1-0h1p0-----
b|-1-----1-3-----3-1-------1---3-------1-----------3---3-----------3---
g|-----0-------0-------0-----0-------2-------0-------2---------------2-
d|---2-------0-------2-----------------------------0-------------------
a|-3-------2-------3-----------------------0---------------------------
E|---------------------------------1-----------------------------------
     Принесем   домой         и оставим с собой до весны 
 
e|-------1---------------3---------------0-------0-1-----0-
b|-1-------1-------3-------3-------1-------1---3-----2-----
g|-----2-----2---2-----4-----4---4-----0-----0---------0---
d|---3---------3-----5---------5-----2---------------------
a|---------------------------------3---------------0-------
E|-1---------------3---------------------------------------
А потом с балкона отпустим ее - пусть летит 
 
e|---0-1-----1-----0-------0-----------0-------0-1-----0-
b|-3-----3-----3-----3-------3---1-------1---3-----2-----
g|---------2-----2-------0-----0-----0-----0---------0---
d|-----0---------------0-----------2---------------------
a|-------------------------------3---------------0-------
E|-------------------3-----------------------------------
 Колокольчик в твоих волосах звучит соль-диезом 
 
e|---0-1-----1-----0-------------
b|-3-----3-----3-----3-0---1---2-
g|---------2-----2-------0---0---
d|-----0-------------------------
a|-------------------------0---1-
E|---------------------3---------
  Колокольчик в твоих волосах... 
 
Концовка:  
  C        G           Gm        Asus4
e|----------------0------------------------
b|----1-1-1-----3---0-------3-3-3----3-2---
g|---0---------0-----------3--------2----2-
d|--2---------0-----------5--------2-------
a|-3---------2-----------5--------0--------
E|----------3-----------3------------------
 
   Dm       F            G
e|----1-1-1------1-0-3-----------------------
b|---2----------1------------3---1-0h1p0---0-
g|--3----------2------------0--2---------2---
d|-0----------3------------0-----------------
a|-----------3------------2------------------
E|----------1------------3---------3---------
    

Аккорды песен Чиж

Показать все

Аккорды и текст песни Чиж - Полонез, под гитару.

Представляем Вашему вниманию полный разбор аккордов и текста песни Полонез, группы Чиж. На нашем сайте вы можете найти сразу несколько подборов аккордов этой композиции, с разными вариантами тональности и манер игры на гитаре.