Аккорды песни Чиж — Снова поезд

       Вступление:
E|------------------------------|
B|------------------------------|
G|------------------------------|
D|----------2---------------2---|
A|------------------------------|
E|-0----0-0---0----0----0-0---0-|

Em D C Bm
 
 Em
Полиритмия вагонных колес
                  D   C
Наводит на мысль о музыке джаз. Жара.
 Em
Замершие окна с другой стороны
                          D   C
Не позволяют увидеть хоть что-нибудь там. День.

Припев:
       D      G           A
   Снова поезд. И близнецы-рельсы куда-то ведут.
       D         G      A
   Снова поезд. Предполагаю мне опять не уснуть.
       D     G           A
   Снова поезд. Вчера был на север, сегодня на юг.
       D    G       A
   Снова поезд. Замкнутый круг.

 Em
И снова бабушки на полустанках
                  D   C
Предлагают нехитрую снеть и вино. Ночь
 Em
Поражая погонами и перегаром
                             D   C
Мотаются взад и назад всех достав дембеля. Жара

Припев:
       D      G           A
   Снова поезд. И близнецы-рельсы куда-то ведут
       D      G           A
   Снова поезд. Предполагаю мне опять не уснуть
       D      G           A
   Снова поезд. Вчера был на запад, сейчас на восток
       D      G           A
   Снова поезд. Полуденный рок.

Соло: (на куплет)
E|-3-3-3--2-2--5---3-3--2---0-0----0-0---3--3-3-3--2-2-3-2-2-0-|
B|------------------------3-----3------3-----------------------|
G|-------------------------------------------------------------|
D|-------------------------------------------------------------|
A|-------------------------------------------------------------|
E|-------------------------------------------------------------|

E|-5-------------|
B|----5-5--3-5-3-|
G|---------------|
D|---------------|
A|---------------|
E|---------------|

Припев:
E|-----------5-5-5-3-2-0---------------5-5-5-3--2--2-----------|
B|-0-1-3-4-5-------------0-1-3-5-7-8-7----------------3-5-7-8--|
G|-------------------------------------------------------------|
D|-------------------------------------------------------------|
A|-------------------------------------------------------------|
E|-------------------------------------------------------------|

E|-----------7-7-7-5-3-5-|
B|-10-12-10--------------|
G|-----------------------|
D|-----------------------|
A|-----------------------|
E|-----------------------|

 Em
Полиритмия вагонных колес
                  D   C
Наводит на мысль о пьесе с названьем "Take Five". Луна
 Em
Луна освещает пустые стаканы
                         D   C
И лица соседей храпящих на все лады. Спи

Припев:
       D      G           A
   Снова поезд. И близнецы-рельсы куда-то ведут
       D      G           A
   Снова поезд. Предполагаю мне опять не уснуть
       D      G           A
   Снова поезд. Вчера был куда-то и куда-то сейчас
       D      G           A
   Снова поезд. Полуночный джаз.
    

Аккорды песен Чиж

Показать все

Аккорды и текст песни Чиж - Снова поезд, под гитару.

Представляем Вашему вниманию полный разбор аккордов и текста песни Снова поезд, группы Чиж. На нашем сайте вы можете найти сразу несколько подборов аккордов этой композиции, с разными вариантами тональности и манер игры на гитаре.