Аккорды песни Ляпис Трубецкой — Русалки

       Intro: D G Bm D }x2

           D         G        Bm           D
1|-------|-10--12-10-10/12------------------10---------
2|-------|-----10----10/12------------------10---------
3|-10-11-|------------------9/11---11-12-11------10-11-
4|-------|---------------------------------------------
5|-------|---------------------------------------------
6|-------|---------------------------------------------

   D         G          Bm         D
1|-10--12-10-10/12-----------------10--
2|-----10----10/12-----------------10--
3|------------------7-9-7--------------
4|------------------9---9--------------
5|-------------------------------------
6|-------------------------------------

Verse 1:
    D                  G
  Моя звезда упала за линию прибоя,
    Bm                  D
  Бокал мой опустел, ты рядом не со мною.
    D                  G
  Холодною рукою тебя волна укрыла,
    Bm                  D
  Бездонною тоскою укутала-пленила.
    D                  G
  И пены и корабль твоей красой дивились,
    Bm                  D
  Как будто женихи среди волос резвились,
    D                  G
  А солнце без тебя расплакалось росою,
    Bm                  D
  И ветер замолчал. Ты там, а не со мною, -
   F# G G G  F# G G G
  Там...   Там...
   F# G G G  A A A A
  Там...   Там...

Chorus:
   D          A     Bm A
  Там, где русалки поют...   
   D          A     Bm A
  Там, где русалки поют...   
   D          A     Bm A
  Там, где русалки поют...   
   D          A     Bm A
  Там, где русалки поют...   

D G Bm D }x2

           D         G        Bm           D
1|-------|-10--12-10-10/12------------------10---------
2|-------|-----10----10/12------------------10---------
3|-10-11-|------------------9/11---11-12-11------10-11-
4|-------|---------------------------------------------
5|-------|---------------------------------------------
6|-------|---------------------------------------------

   D         G          Bm         D
1|-10--12-10-10/12-----------------10--
2|-----10----10/12-----------------10--
3|------------------7-9-7--------------
4|------------------9---9--------------
5|-------------------------------------
6|-------------------------------------

Verse 2:
    D                  G
  Нет горя и печали, голодные утесы,
    Bm                  D
  Возьмите мою боль, возьмите мои слезы.
    D                  G
  Бездоннуюю тоску собою разукрашу,
    Bm                  D
  Пускай они поют, а мы с тобою спляшем
   F# G G G  F# G G G
  Там...   Там...
   F# G G G  A A A A
  Там...   Там...

Chorus:
   D          A     Bm A
  Там, где русалки поют...   
   D          A     Bm A
  Там, где русалки поют...   
   D          A     Bm A
  Там, где русалки поют...   
   D          A     Bm A
  Там, где русалки поют...   

HornSolo: D G Bm D }x2
          F# G }x3 A

Chorus:
   D          A     Bm A
  Там, где русалки поют...   
   D          A     Bm A
  Там, где русалки поют...   
   D          A     Bm A
  Там, где русалки поют...   
   D          A     Bm A
  Там, где русалки поют...   
    

Аккорды песен Ляпис Трубецкой

Показать все

Аккорды и текст песни Ляпис Трубецкой - Русалки, под гитару.

Представляем Вашему вниманию полный разбор аккордов и текста песни Русалки, группы Ляпис Трубецкой. На нашем сайте вы можете найти сразу несколько подборов аккордов этой композиции, с разными вариантами тональности и манер игры на гитаре.